生日礼物吉他谱原版

生日礼物吉他谱原版

生日礼物吉他谱原版

最近你的朋友过生日了,你想要为他/她准备一份特别的礼物。你知道他/她对音乐很感兴趣,所以你决定为他/她写一首歌,并用吉他谱的形式呈现出来。

第一段:

    E|-------0-----------------0-----------------0------------0----|
    B|-----3----3-----------3----3-----------3-----3------3-----3--|
    G|---2----------2-----0----------0-----0-----------0-----------|
    D|-0-----------------0-----------------------------0-------------|
    A|----------------------------------------------------------------|
    E|----------------------------------------------------------------|

这是歌曲的第一段,使用了E大调的和弦。在演奏时,请注意保持手指的力度和节奏。

第二段:

    E|-------0-----------------0-----------------0------|
    B|-----3----3-----------3----3-----------3-----3----|
    G|---2----------2-----0----------0-----0--------0--|
    D|-0-----------------0---------------------------|
    A|--------------------------------------------------|
    E|--------------------------------------------------|

这是歌曲的第二段,与第一段相似,同样使用了E大调的和弦。尝试演奏两段旋律,看看它们是否在你的耳朵里留下了印象。

第三段:

    E|-------0-----------------0-----------------0------------0----|
    B|-----3----3-----------3----3-----------3-----3------3-----3--|
    G|---0----------0-----0----------0-----0-----------0-----------|
    D|--------------------------------0h2---------------------------|
    A|-2-----------------3-----------------------------2-------------|
    E|----------------------------------------------------------------|

这是歌曲的第三段,使用了A大调与C大调的和弦。如果你觉得前两段旋律已经够顺畅了,那么这一段会给你的演奏带来更多的变化和趣味性。

第四段:

    E|-0------0------0------0-----|
    B|---3-3-----3-3-----3-3-----3-|
    G|-----0-------------0--------|
    D|---------2p0---------------|
    A|-3--------------------------|
    E|-----------------------------|

这是歌曲的第四段,使用了E大调的和弦和滑音技巧。这段旋律的结尾非常美妙,值得在你的演奏中重点关注。

希望这份礼物能给你的朋友带来愉悦和惊喜。祝你好运!

0

177